Thursday, December 1, 2011

Ey manjey solo tab- Trio


    Dm                                                                 c                                                                    Dm
e-------------------------------------------------------10-10----------------------------------------------------------------------8-8---------------------*
B---8h10-10-10-8------8h10-10-10-8-------------10-8----8-6/5-6---5-5-5-6-8-8--8-6-5-6-8-8-8-6-5----8-6-5-6-5/3-3-*
G-----------------------10-----------------------10-----------------10------------------------------------------------------------------------------------*
D---------------------------------------------------------------------------------------------------------------------------------------------------------------*
A---------------------------------------------------------------------------------------------------------------------------------------------------------------*
E---------------------------------------------------------------------------------------------------------------------------------------------------------------*


       Dm                               C                                           Bb  C    Dm
e--------5-8-5-5H6-----5-8-5-5-------3-6-3-3H4--------3-6-3-3---------1---0--3/5--3/1-1-3-1-----------------------*
B------6------------------6---------------4----------------------4-------------------2---1--------------------------3-1-3-3-----------*
G---7-------------------7--------------5----------------------5--------------------3---2--------------------------------------------------*
D-----------------------------------------------------------------------------------------------------------------------------------------------*
A-----------------------------------------------------------------------------------------------------------------------------------------------*
E-----------------------------------------------------------------------------------------------------------------------------------------------*


tab by Mohamed Hassaan

7 comments: