Wednesday, November 23, 2011

Chaaley - Trio

CHAAAALEY by Trio
Intro:
C, A Minor,F. G

Intro Solo:
...
E:-------------------------------------------------------------------------------|
B:--------------5---5/6/5-----5--6/8--6--5--6--5/6/5-----------------------------|
G:--------5--7-------------7--------------------------7--7--5-----5--7--5-- -----|
D:--5--7--------------------------------------------------------7----------------|
A:-------------------------------------------------------------------------------|
E:-------------------------------------------------------------------------------|

E:-------------------------------------------------------------------------|
B:-------------------------------------------------------------------------|
G:--4--5--4----------------------------------------------------------------|
D:-----------7--5--5/7--7/5--5--3--3--3/5----------------------------------|
A:-------------------------------------------------------------------------|
E:-------------------------------------------------------------------------|

Verse 1:

C A Minor F G
Saadha Viley Rey Handhu Fadha Chaalu Reethi Moonu Mirey Foruvumun

C A Minor F G
Ekani Vefaa Vaatharithah Govanyey Mirey Annashey x2

C A Minor
Hih Hama Jehumeh Nulibey Nufenumun Thi Reethi Soora

F G
Haadhahaa Hithah Thadhu Vey Nufenumun Kalaage Soora x2

Chorus:

C A Minor F G
Chaaley Chaaley Chaaley Magey Rankolhaa

C A Minor F G
Chaaley Magey Dhoonyaa Chaaley Magey Rankolhaa

Solo:

E:--------------------------------------------------------------------------|
B:--------------------------------------------------------6/5---------------|
G:--------5/7-5--5---4--4/5--5--7--5--4/5--4-------------------7------------|
D:--5--7--------------------------------------7--5/7/5----------------------|
A:--------------------------------------------------------------------------|
E:--------------------------------------------------------------------------|

E:--------------------------------------------------------------------------|
B:---------8--6--5/6/5-----5------------------------------------------------|
G:--5/7/5---------------7-----7--5--5/4--4/5--5/7--5--4---------------------|
D:-------------------------------------------------------5/7/5--------------|
A:--------------------------------------------------------------------------|
E:--------------------------------------------------------------------------|

No comments:

Post a Comment